ISO-10303-21;
HEADER;
FILE_DESCRIPTION(('Creo Elements/Direct Modeling STEP Export'),'2;1');
FILE_NAME(
'C:/Users/TECCAD~1/AppData/Local/Temp/0lndqdl40t5jjaa2160/0lndqdl40t5jja
c2160','2016-01-26T11:14:26',(''),(''),
'PTC Creo Elements/Direct Modeling STEP processor for AP214 (Solid Model
)',
'PTC Creo Elements/Direct Modeling 19.0B  21-Mar-2015 (C) Parametric Tec
hnology GmbH','');
FILE_SCHEMA(('AUTOMOTIVE_DESIGN { 1 0 10303 214 1 1 1 1 }'));
ENDSEC;
DATA;
#10=CARTESIAN_POINT('',(29.0068653946309,57.557183,-4.38245126753125));
#20=DIRECTION('',(0.,1.,1.11022302462516E-16));
#30=DIRECTION('',(-1.,0.,0.));
#40=AXIS2_PLACEMENT_3D('',#10,#20,#30);
#50=PLANE('',#40);
#60=CARTESIAN_POINT('',(35.922181456812,57.557183,-11.463720874298));
#70=DIRECTION('',(8.85536848875934E-16,1.,1.11022302462516E-16));
#80=DIRECTION('',(1.,-8.85536848875934E-16,-9.8314339877607E-32));
#90=AXIS2_PLACEMENT_3D('',#60,#70,#80);
#100=CIRCLE('',#90,3.23606797749986);
#110=CARTESIAN_POINT('',(39.1582494343119,57.557183,-11.463720874298));
#120=VERTEX_POINT('',#110);
#130=CARTESIAN_POINT('',(32.6861134793122,57.557183,-11.463720874298));
#140=VERTEX_POINT('',#130);
#150=EDGE_CURVE('',#120,#140,#100,.T.);
#160=ORIENTED_EDGE('',*,*,#150,.T.);
#170=EDGE_CURVE('',#140,#120,#100,.T.);
#180=ORIENTED_EDGE('',*,*,#170,.T.);
#190=EDGE_LOOP('',(#180,#160));
#200=FACE_OUTER_BOUND('',#190,.T.);
#210=ADVANCED_FACE('',(#200),#50,.T.);
#220=CARTESIAN_POINT('',(35.922181456812,55.5571830000002,
-11.463720874298));
#230=DIRECTION('',(8.85536848875934E-16,1.,1.11022302462516E-16));
#240=DIRECTION('',(1.,-8.85536848875934E-16,-9.8314339877607E-32));
#250=AXIS2_PLACEMENT_3D('',#220,#230,#240);
#260=DEGENERATE_TOROIDAL_SURFACE('',#250,0.999999999999922,3.,.T.);
#270=CARTESIAN_POINT('',(36.9221814568119,55.5571830000002,
-11.463720874298));
#280=DIRECTION('',(0.,1.11022302462516E-16,-1.));
#290=DIRECTION('',(-1.,8.85536848875934E-16,9.8314339877607E-32));
#300=AXIS2_PLACEMENT_3D('',#270,#280,#290);
#310=CIRCLE('',#300,3.);
#320=CARTESIAN_POINT('',(39.9221814568119,55.5571830000002,
-11.463720874298));
#330=VERTEX_POINT('',#320);
#340=EDGE_CURVE('',#120,#330,#310,.T.);
#350=ORIENTED_EDGE('',*,*,#340,.F.);
#360=CARTESIAN_POINT('',(35.922181456812,55.5571830000002,
-11.463720874298));
#370=DIRECTION('',(4.42768424437967E-16,1.,1.11022302462516E-16));
#380=DIRECTION('',(1.,-4.42768424437967E-16,-4.91571699388035E-32));
#390=AXIS2_PLACEMENT_3D('',#360,#370,#380);
#400=CIRCLE('',#390,3.99999999999996);
#410=CARTESIAN_POINT('',(31.9221814568121,55.5571830000002,
-11.463720874298));
#420=VERTEX_POINT('',#410);
#430=EDGE_CURVE('',#420,#330,#400,.T.);
#440=ORIENTED_EDGE('',*,*,#430,.T.);
#450=CARTESIAN_POINT('',(34.9221814568121,55.5571830000002,
-11.463720874298));
#460=DIRECTION('',(0.,-1.11022302462516E-16,1.));
#470=DIRECTION('',(1.,-8.85536848875934E-16,-9.8314339877607E-32));
#480=AXIS2_PLACEMENT_3D('',#450,#460,#470);
#490=CIRCLE('',#480,3.);
#500=EDGE_CURVE('',#140,#420,#490,.T.);
#510=ORIENTED_EDGE('',*,*,#500,.T.);
#520=ORIENTED_EDGE('',*,*,#170,.F.);
#530=EDGE_LOOP('',(#520,#510,#440,#350));
#540=FACE_OUTER_BOUND('',#530,.T.);
#550=ADVANCED_FACE('',(#540),#260,.T.);
#560=CARTESIAN_POINT('',(35.922181456812,55.5571830000002,
-11.463720874298));
#570=DIRECTION('',(8.85536848875934E-16,1.,1.11022302462516E-16));
#580=DIRECTION('',(1.,-8.85536848875934E-16,-9.8314339877607E-32));
#590=AXIS2_PLACEMENT_3D('',#560,#570,#580);
#600=DEGENERATE_TOROIDAL_SURFACE('',#590,0.999999999999922,3.,.T.);
#610=ORIENTED_EDGE('',*,*,#150,.F.);
#620=ORIENTED_EDGE('',*,*,#500,.F.);
#630=EDGE_CURVE('',#330,#420,#400,.T.);
#640=ORIENTED_EDGE('',*,*,#630,.T.);
#650=ORIENTED_EDGE('',*,*,#340,.T.);
#660=EDGE_LOOP('',(#650,#640,#620,#610));
#670=FACE_OUTER_BOUND('',#660,.T.);
#680=ADVANCED_FACE('',(#670),#600,.T.);
#690=CARTESIAN_POINT('',(35.922181456812,57.057183,-11.463720874298));
#700=DIRECTION('',(0.,1.,1.11022302462516E-16));
#710=DIRECTION('',(-1.,0.,0.));
#720=AXIS2_PLACEMENT_3D('',#690,#700,#710);
#730=CYLINDRICAL_SURFACE('',#720,4.);
#740=CARTESIAN_POINT('',(39.922181456812,57.057183,-11.463720874298));
#750=DIRECTION('',(0.,1.,1.11022302462516E-16));
#760=VECTOR('',#750,1.);
#770=LINE('',#740,#760);
#780=CARTESIAN_POINT('',(39.922181456812,40.057183,-11.463720874298));
#790=VERTEX_POINT('',#780);
#800=EDGE_CURVE('',#790,#330,#770,.T.);
#810=ORIENTED_EDGE('',*,*,#800,.F.);
#820=ORIENTED_EDGE('',*,*,#630,.F.);
#830=CARTESIAN_POINT('',(31.922181456812,57.057183,-11.463720874298));
#840=DIRECTION('',(0.,1.,1.11022302462516E-16));
#850=VECTOR('',#840,1.);
#860=LINE('',#830,#850);
#870=CARTESIAN_POINT('',(31.922181456812,40.057183,-11.463720874298));
#880=VERTEX_POINT('',#870);
#890=EDGE_CURVE('',#880,#420,#860,.T.);
#900=ORIENTED_EDGE('',*,*,#890,.T.);
#910=CARTESIAN_POINT('',(35.922181456812,40.057183,-11.463720874298));
#920=DIRECTION('',(0.,1.,1.11022302462516E-16));
#930=DIRECTION('',(-1.,0.,0.));
#940=AXIS2_PLACEMENT_3D('',#910,#920,#930);
#950=CIRCLE('',#940,4.);
#960=EDGE_CURVE('',#790,#880,#950,.T.);
#970=ORIENTED_EDGE('',*,*,#960,.T.);
#980=EDGE_LOOP('',(#970,#900,#820,#810));
#990=FACE_OUTER_BOUND('',#980,.T.);
#1000=ADVANCED_FACE('',(#990),#730,.T.);
#1010=CARTESIAN_POINT('',(29.0068653946309,40.057183,-4.38245126753126))
;
#1020=DIRECTION('',(0.,1.,1.11022302462516E-16));
#1030=DIRECTION('',(-1.,0.,0.));
#1040=AXIS2_PLACEMENT_3D('',#1010,#1020,#1030);
#1050=PLANE('',#1040);
#1060=EDGE_CURVE('',#880,#790,#950,.T.);
#1070=ORIENTED_EDGE('',*,*,#1060,.F.);
#1080=ORIENTED_EDGE('',*,*,#960,.F.);
#1090=EDGE_LOOP('',(#1080,#1070));
#1100=FACE_BOUND('',#1090,.T.);
#1110=CARTESIAN_POINT('',(35.922181456812,40.057183,-11.463720874298));
#1120=DIRECTION('',(0.,1.,1.11022302462516E-16));
#1130=DIRECTION('',(-1.,0.,0.));
#1140=AXIS2_PLACEMENT_3D('',#1110,#1120,#1130);
#1150=CIRCLE('',#1140,6.5);
#1160=CARTESIAN_POINT('',(29.422181456812,40.057183,-11.463720874298));
#1170=VERTEX_POINT('',#1160);
#1180=CARTESIAN_POINT('',(42.422181456812,40.057183,-11.463720874298));
#1190=VERTEX_POINT('',#1180);
#1200=EDGE_CURVE('',#1170,#1190,#1150,.T.);
#1210=ORIENTED_EDGE('',*,*,#1200,.T.);
#1220=EDGE_CURVE('',#1190,#1170,#1150,.T.);
#1230=ORIENTED_EDGE('',*,*,#1220,.T.);
#1240=EDGE_LOOP('',(#1230,#1210));
#1250=FACE_OUTER_BOUND('',#1240,.T.);
#1260=ADVANCED_FACE('',(#1100,#1250),#1050,.T.);
#1270=CARTESIAN_POINT('',(35.922181456812,27.7059940000019,
-11.463720874298));
#1280=DIRECTION('',(0.,-1.,-1.11022302462516E-16));
#1290=DIRECTION('',(0.,1.11022302462516E-16,-1.));
#1300=AXIS2_PLACEMENT_3D('',#1270,#1280,#1290);
#1310=CYLINDRICAL_SURFACE('',#1300,6.1);
#1320=CARTESIAN_POINT('',(35.922181456812,34.8262428923244,
-11.463720874298));
#1330=DIRECTION('',(4.42768424437967E-16,1.,1.11022302462516E-16));
#1340=DIRECTION('',(-1.,4.42768424437967E-16,4.91571699388035E-32));
#1350=AXIS2_PLACEMENT_3D('',#1320,#1330,#1340);
#1360=CIRCLE('',#1350,6.10000000000002);
#1370=CARTESIAN_POINT('',(29.822181456812,34.8262428923244,
-11.463720874298));
#1380=VERTEX_POINT('',#1370);
#1390=CARTESIAN_POINT('',(35.922181456812,34.8262428923244,
-5.36372087429796));
#1400=VERTEX_POINT('',#1390);
#1410=EDGE_CURVE('',#1380,#1400,#1360,.T.);
#1420=ORIENTED_EDGE('',*,*,#1410,.F.);
#1430=CARTESIAN_POINT('',(35.922181456812,27.7059940000019,
-5.36372087429796));
#1440=DIRECTION('',(0.,-1.,-1.11022302462516E-16));
#1450=VECTOR('',#1440,1.);
#1460=LINE('',#1430,#1450);
#1470=CARTESIAN_POINT('',(35.922181456812,20.5571830000001,
-5.36372087429796));
#1480=VERTEX_POINT('',#1470);
#1490=EDGE_CURVE('',#1400,#1480,#1460,.T.);
#1500=ORIENTED_EDGE('',*,*,#1490,.F.);
#1510=CARTESIAN_POINT('',(35.922181456812,20.5571830000001,
-11.463720874298));
#1520=DIRECTION('',(0.,-1.,-1.11022302462516E-16));
#1530=DIRECTION('',(1.,0.,0.));
#1540=AXIS2_PLACEMENT_3D('',#1510,#1520,#1530);
#1550=CIRCLE('',#1540,6.10000000000006);
#1560=CARTESIAN_POINT('',(35.922181456812,20.5571830000001,
-17.563720874298));
#1570=VERTEX_POINT('',#1560);
#1580=EDGE_CURVE('',#1480,#1570,#1550,.T.);
#1590=ORIENTED_EDGE('',*,*,#1580,.F.);
#1600=CARTESIAN_POINT('',(35.922181456812,27.7059940000019,
-17.563720874298));
#1610=DIRECTION('',(0.,-1.,-1.11022302462516E-16));
#1620=VECTOR('',#1610,1.);
#1630=LINE('',#1600,#1620);
#1640=CARTESIAN_POINT('',(35.922181456812,34.8262428923244,
-17.563720874298));
#1650=VERTEX_POINT('',#1640);
#1660=EDGE_CURVE('',#1650,#1570,#1630,.T.);
#1670=ORIENTED_EDGE('',*,*,#1660,.T.);
#1680=EDGE_CURVE('',#1650,#1380,#1360,.T.);
#1690=ORIENTED_EDGE('',*,*,#1680,.F.);
#1700=EDGE_LOOP('',(#1690,#1670,#1590,#1500,#1420));
#1710=FACE_OUTER_BOUND('',#1700,.T.);
#1720=ADVANCED_FACE('',(#1710),#1310,.T.);
#1730=CARTESIAN_POINT('',(35.922181456812,40.057183,-11.463720874298));
#1740=DIRECTION('',(0.,1.,1.11022302462516E-16));
#1750=DIRECTION('',(-1.,0.,0.));
#1760=AXIS2_PLACEMENT_3D('',#1730,#1740,#1750);
#1770=CYLINDRICAL_SURFACE('',#1760,6.5);
#1780=CARTESIAN_POINT('',(42.422181456812,40.057183,-11.463720874298));
#1790=DIRECTION('',(0.,1.,1.11022302462516E-16));
#1800=VECTOR('',#1790,1.);
#1810=LINE('',#1780,#1800);
#1820=CARTESIAN_POINT('',(42.422181456812,18.057183,-11.463720874298));
#1830=VERTEX_POINT('',#1820);
#1840=CARTESIAN_POINT('',(42.422181456812,20.5571830000001,
-11.463720874298));
#1850=VERTEX_POINT('',#1840);
#1860=EDGE_CURVE('',#1830,#1850,#1810,.T.);
#1870=ORIENTED_EDGE('',*,*,#1860,.F.);
#1880=CARTESIAN_POINT('',(35.922181456812,20.5571830000001,
-11.463720874298));
#1890=DIRECTION('',(-8.85536848875934E-16,-1.,-8.33507418448276E-16));
#1900=DIRECTION('',(1.,-8.85536848875934E-16,-7.38101532847401E-31));
#1910=AXIS2_PLACEMENT_3D('',#1880,#1890,#1900);
#1920=CIRCLE('',#1910,6.49999999999996);
#1930=CARTESIAN_POINT('',(29.422181456812,20.5571830000001,
-11.463720874298));
#1940=VERTEX_POINT('',#1930);
#1950=EDGE_CURVE('',#1940,#1850,#1920,.T.);
#1960=ORIENTED_EDGE('',*,*,#1950,.T.);
#1970=CARTESIAN_POINT('',(29.422181456812,40.057183,-11.463720874298));
#1980=DIRECTION('',(0.,1.,1.11022302462516E-16));
#1990=VECTOR('',#1980,1.);
#2000=LINE('',#1970,#1990);
#2010=CARTESIAN_POINT('',(29.422181456812,18.057183,-11.463720874298));
#2020=VERTEX_POINT('',#2010);
#2030=EDGE_CURVE('',#2020,#1940,#2000,.T.);
#2040=ORIENTED_EDGE('',*,*,#2030,.T.);
#2050=CARTESIAN_POINT('',(35.922181456812,18.057183,-11.463720874298));
#2060=DIRECTION('',(0.,1.,1.11022302462516E-16));
#2070=DIRECTION('',(-1.,0.,0.));
#2080=AXIS2_PLACEMENT_3D('',#2050,#2060,#2070);
#2090=CIRCLE('',#2080,6.5);
#2100=EDGE_CURVE('',#1830,#2020,#2090,.T.);
#2110=ORIENTED_EDGE('',*,*,#2100,.T.);
#2120=EDGE_LOOP('',(#2110,#2040,#1960,#1870));
#2130=FACE_OUTER_BOUND('',#2120,.T.);
#2140=ADVANCED_FACE('',(#2130),#1770,.T.);
#2150=CARTESIAN_POINT('',(35.922181456812,40.057183,-11.463720874298));
#2160=DIRECTION('',(0.,1.,1.11022302462516E-16));
#2170=DIRECTION('',(-1.,0.,0.));
#2180=AXIS2_PLACEMENT_3D('',#2150,#2160,#2170);
#2190=CYLINDRICAL_SURFACE('',#2180,6.5);
#2200=CARTESIAN_POINT('',(29.422181456812,40.057183,-11.463720874298));
#2210=DIRECTION('',(0.,1.,1.11022302462516E-16));
#2220=VECTOR('',#2210,1.);
#2230=LINE('',#2200,#2220);
#2240=CARTESIAN_POINT('',(29.422181456812,35.0571830000002,
-11.463720874298));
#2250=VERTEX_POINT('',#2240);
#2260=EDGE_CURVE('',#2250,#1170,#2230,.T.);
#2270=ORIENTED_EDGE('',*,*,#2260,.F.);
#2280=ORIENTED_EDGE('',*,*,#1200,.F.);
#2290=CARTESIAN_POINT('',(42.422181456812,40.057183,-11.463720874298));
#2300=DIRECTION('',(0.,1.,1.11022302462516E-16));
#2310=VECTOR('',#2300,1.);
#2320=LINE('',#2290,#2310);
#2330=CARTESIAN_POINT('',(42.422181456812,35.0571830000002,
-11.463720874298));
#2340=VERTEX_POINT('',#2330);
#2350=EDGE_CURVE('',#2340,#1190,#2320,.T.);
#2360=ORIENTED_EDGE('',*,*,#2350,.T.);
#2370=CARTESIAN_POINT('',(35.922181456812,35.0571830000002,
-11.463720874298));
#2380=DIRECTION('',(4.42768424437967E-16,1.,1.11022302462516E-16));
#2390=DIRECTION('',(-1.,4.42768424437967E-16,4.91571699388035E-32));
#2400=AXIS2_PLACEMENT_3D('',#2370,#2380,#2390);
#2410=CIRCLE('',#2400,6.5);
#2420=EDGE_CURVE('',#2250,#2340,#2410,.T.);
#2430=ORIENTED_EDGE('',*,*,#2420,.T.);
#2440=EDGE_LOOP('',(#2430,#2360,#2280,#2270));
#2450=FACE_OUTER_BOUND('',#2440,.T.);
#2460=ADVANCED_FACE('',(#2450),#2190,.T.);
#2470=CARTESIAN_POINT('',(35.922181456812,33.557183,-11.463720874298));
#2480=DIRECTION('',(0.,-1.,0.));
#2490=DIRECTION('',(-1.,0.,0.));
#2500=AXIS2_PLACEMENT_3D('',#2470,#2480,#2490);
#2510=CONICAL_SURFACE('',#2500,3.95,1.22173047639603);
#2520=CARTESIAN_POINT('',(31.972181456812,33.557183,-11.463720874298));
#2530=DIRECTION('',(-0.939692620785909,-0.342020143325667,
-8.45179450059239E-16));
#2540=VECTOR('',#2530,4.20350220127985);
#2550=LINE('',#2520,#2540);
#2560=CARTESIAN_POINT('',(35.922181456812,34.9948654253515,
-11.463720874298));
#2570=VERTEX_POINT('',#2560);
#2580=CARTESIAN_POINT('',(31.972181456812,33.557183,-11.463720874298));
#2590=VERTEX_POINT('',#2580);
#2600=EDGE_CURVE('',#2570,#2590,#2550,.T.);
#2610=ORIENTED_EDGE('',*,*,#2600,.T.);
#2620=CARTESIAN_POINT('',(39.872181456812,33.557183,-11.463720874298));
#2630=DIRECTION('',(0.939692620785909,-0.342020143325667,
-8.45179450059239E-16));
#2640=VECTOR('',#2630,4.20350220127985);
#2650=LINE('',#2620,#2640);
#2660=CARTESIAN_POINT('',(39.872181456812,33.557183,-11.463720874298));
#2670=VERTEX_POINT('',#2660);
#2680=EDGE_CURVE('',#2570,#2670,#2650,.T.);
#2690=ORIENTED_EDGE('',*,*,#2680,.F.);
#2700=CARTESIAN_POINT('',(35.922181456812,33.557183,-11.463720874298));
#2710=DIRECTION('',(0.,-1.,-1.11022302462516E-16));
#2720=DIRECTION('',(1.,0.,0.));
#2730=AXIS2_PLACEMENT_3D('',#2700,#2710,#2720);
#2740=CIRCLE('',#2730,3.95);
#2750=EDGE_CURVE('',#2590,#2670,#2740,.T.);
#2760=ORIENTED_EDGE('',*,*,#2750,.T.);
#2770=EDGE_LOOP('',(#2760,#2690,#2610));
#2780=FACE_OUTER_BOUND('',#2770,.T.);
#2790=ADVANCED_FACE('',(#2780),#2510,.F.);
#2800=CARTESIAN_POINT('',(35.922181456812,27.1495223758659,
-11.463720874298));
#2810=DIRECTION('',(0.,-1.,-1.11022302462516E-16));
#2820=DIRECTION('',(-1.,0.,0.));
#2830=AXIS2_PLACEMENT_3D('',#2800,#2810,#2820);
#2840=CYLINDRICAL_SURFACE('',#2830,3.95);
#2850=CARTESIAN_POINT('',(39.872181456812,27.1495223758659,
-11.463720874298));
#2860=DIRECTION('',(0.,-1.,-1.11022302462516E-16));
#2870=VECTOR('',#2860,1.);
#2880=LINE('',#2850,#2870);
#2890=CARTESIAN_POINT('',(39.872181456812,20.7418617517318,
-11.463720874298));
#2900=VERTEX_POINT('',#2890);
#2910=EDGE_CURVE('',#2670,#2900,#2880,.T.);
#2920=ORIENTED_EDGE('',*,*,#2910,.F.);
#2930=CARTESIAN_POINT('',(35.922181456812,20.7418617517318,
-11.463720874298));
#2940=DIRECTION('',(0.,-1.,-1.11022302462516E-16));
#2950=DIRECTION('',(1.,0.,0.));
#2960=AXIS2_PLACEMENT_3D('',#2930,#2940,#2950);
#2970=CIRCLE('',#2960,3.95);
#2980=CARTESIAN_POINT('',(31.972181456812,20.7418617517318,
-11.463720874298));
#2990=VERTEX_POINT('',#2980);
#3000=EDGE_CURVE('',#2990,#2900,#2970,.T.);
#3010=ORIENTED_EDGE('',*,*,#3000,.T.);
#3020=CARTESIAN_POINT('',(31.972181456812,27.1495223758659,
-11.463720874298));
#3030=DIRECTION('',(0.,-1.,-1.11022302462516E-16));
#3040=VECTOR('',#3030,1.);
#3050=LINE('',#3020,#3040);
#3060=EDGE_CURVE('',#2590,#2990,#3050,.T.);
#3070=ORIENTED_EDGE('',*,*,#3060,.T.);
#3080=ORIENTED_EDGE('',*,*,#2750,.F.);
#3090=EDGE_LOOP('',(#3080,#3070,#3010,#2920));
#3100=FACE_OUTER_BOUND('',#3090,.T.);
#3110=ADVANCED_FACE('',(#3100),#2840,.F.);
#3120=CARTESIAN_POINT('',(35.922181456812,35.0571830000002,
-11.463720874298));
#3130=DIRECTION('',(0.,1.,0.));
#3140=DIRECTION('',(-1.,8.85536848875934E-16,9.8314339877607E-32));
#3150=AXIS2_PLACEMENT_3D('',#3120,#3130,#3140);
#3160=CONICAL_SURFACE('',#3150,6.49999999999993,1.0471975511966);
#3170=CARTESIAN_POINT('',(42.022181456812,34.8262428923243,
-11.463720874298));
#3180=VERTEX_POINT('',#3170);
#3190=EDGE_CURVE('',#3180,#1650,#1360,.T.);
#3200=ORIENTED_EDGE('',*,*,#3190,.T.);
#3210=CARTESIAN_POINT('',(42.4221814568119,35.0571830000001,
-11.463720874298));
#3220=DIRECTION('',(0.866025403784439,0.499999999999999,0.));
#3230=VECTOR('',#3220,7.50555349946505);
#3240=LINE('',#3210,#3230);
#3250=EDGE_CURVE('',#3180,#2340,#3240,.T.);
#3260=ORIENTED_EDGE('',*,*,#3250,.F.);
#3270=EDGE_CURVE('',#2340,#2250,#2410,.T.);
#3280=ORIENTED_EDGE('',*,*,#3270,.F.);
#3290=CARTESIAN_POINT('',(29.4221814568121,35.0571830000002,
-11.463720874298));
#3300=DIRECTION('',(-0.866025403784438,0.500000000000001,
2.36672330631826E-16));
#3310=VECTOR('',#3300,7.50555349946505);
#3320=LINE('',#3290,#3310);
#3330=EDGE_CURVE('',#1380,#2250,#3320,.T.);
#3340=ORIENTED_EDGE('',*,*,#3330,.T.);
#3350=ORIENTED_EDGE('',*,*,#1680,.T.);
#3360=EDGE_LOOP('',(#3350,#3340,#3280,#3260,#3200));
#3370=FACE_OUTER_BOUND('',#3360,.T.);
#3380=ADVANCED_FACE('',(#3370),#3160,.T.);
#3390=CARTESIAN_POINT('',(28.122179056812,18.057183,5.572944));
#3400=DIRECTION('',(0.,1.,0.));
#3410=DIRECTION('',(-0.,0.,-1.));
#3420=AXIS2_PLACEMENT_3D('',#3390,#3400,#3410);
#3430=PLANE('',#3420);
#3440=CARTESIAN_POINT('',(35.922181456812,18.057183,-11.463720874298));
#3450=DIRECTION('',(0.,-1.,-1.11022302462516E-16));
#3460=DIRECTION('',(-1.,0.,0.));
#3470=AXIS2_PLACEMENT_3D('',#3440,#3450,#3460);
#3480=CIRCLE('',#3470,5.5);
#3490=CARTESIAN_POINT('',(30.422181456812,18.057183,-11.463720874298));
#3500=VERTEX_POINT('',#3490);
#3510=CARTESIAN_POINT('',(41.422181456812,18.057183,-11.463720874298));
#3520=VERTEX_POINT('',#3510);
#3530=EDGE_CURVE('',#3500,#3520,#3480,.T.);
#3540=ORIENTED_EDGE('',*,*,#3530,.F.);
#3550=EDGE_CURVE('',#3520,#3500,#3480,.T.);
#3560=ORIENTED_EDGE('',*,*,#3550,.F.);
#3570=EDGE_LOOP('',(#3560,#3540));
#3580=FACE_BOUND('',#3570,.T.);
#3590=EDGE_CURVE('',#2020,#1830,#2090,.T.);
#3600=ORIENTED_EDGE('',*,*,#3590,.F.);
#3610=ORIENTED_EDGE('',*,*,#2100,.F.);
#3620=EDGE_LOOP('',(#3610,#3600));
#3630=FACE_OUTER_BOUND('',#3620,.T.);
#3640=ADVANCED_FACE('',(#3580,#3630),#3430,.F.);
#3650=CARTESIAN_POINT('',(42.222181456812,20.5571830000001,
-11.463720874298));
#3660=DIRECTION('',(-0.,1.,1.11022302462516E-16));
#3670=DIRECTION('',(1.,0.,0.));
#3680=AXIS2_PLACEMENT_3D('',#3650,#3660,#3670);
#3690=PLANE('',#3680);
#3700=ORIENTED_EDGE('',*,*,#1950,.F.);
#3710=EDGE_CURVE('',#1850,#1940,#1920,.T.);
#3720=ORIENTED_EDGE('',*,*,#3710,.F.);
#3730=EDGE_LOOP('',(#3720,#3700));
#3740=FACE_OUTER_BOUND('',#3730,.T.);
#3750=ORIENTED_EDGE('',*,*,#1580,.T.);
#3760=CARTESIAN_POINT('',(42.022181456812,20.5571830000001,
-11.463720874298));
#3770=VERTEX_POINT('',#3760);
#3780=EDGE_CURVE('',#3770,#1480,#1550,.T.);
#3790=ORIENTED_EDGE('',*,*,#3780,.T.);
#3800=EDGE_CURVE('',#1570,#3770,#1550,.T.);
#3810=ORIENTED_EDGE('',*,*,#3800,.T.);
#3820=EDGE_LOOP('',(#3810,#3790,#3750));
#3830=FACE_BOUND('',#3820,.T.);
#3840=ADVANCED_FACE('',(#3740,#3830),#3690,.T.);
#3850=CARTESIAN_POINT('',(35.922181456812,16.877183,-11.463720874298));
#3860=DIRECTION('',(0.,-1.,0.));
#3870=DIRECTION('',(-1.,0.,0.));
#3880=AXIS2_PLACEMENT_3D('',#3850,#3860,#3870);
#3890=CONICAL_SURFACE('',#3880,6.18127331764376,0.523598775598299);
#3900=CARTESIAN_POINT('',(42.1034547744557,16.877183,-11.463720874298));
#3910=DIRECTION('',(0.5,-0.866025403784439,0.));
#3920=VECTOR('',#3910,12.3625466352875);
#3930=LINE('',#3900,#3920);
#3940=EDGE_CURVE('',#2900,#3520,#3930,.T.);
#3950=ORIENTED_EDGE('',*,*,#3940,.F.);
#3960=ORIENTED_EDGE('',*,*,#3530,.T.);
#3970=CARTESIAN_POINT('',(29.7409081391682,16.877183,-11.463720874298));
#3980=DIRECTION('',(-0.5,-0.866025403784439,0.));
#3990=VECTOR('',#3980,12.3625466352875);
#4000=LINE('',#3970,#3990);
#4010=EDGE_CURVE('',#2990,#3500,#4000,.T.);
#4020=ORIENTED_EDGE('',*,*,#4010,.T.);
#4030=ORIENTED_EDGE('',*,*,#3000,.F.);
#4040=EDGE_LOOP('',(#4030,#4020,#3960,#3950));
#4050=FACE_OUTER_BOUND('',#4040,.T.);
#4060=ADVANCED_FACE('',(#4050),#3890,.F.);
#4070=ORIENTED_EDGE('',*,*,#1860,.T.);
#4080=ORIENTED_EDGE('',*,*,#3590,.T.);
#4090=ORIENTED_EDGE('',*,*,#2030,.F.);
#4100=ORIENTED_EDGE('',*,*,#3710,.T.);
#4110=EDGE_LOOP('',(#4100,#4090,#4080,#4070));
#4120=FACE_OUTER_BOUND('',#4110,.T.);
#4130=ADVANCED_FACE('',(#4120),#2190,.T.);
#4140=CARTESIAN_POINT('',(35.922181456812,16.877183,-11.463720874298));
#4150=DIRECTION('',(0.,-1.,0.));
#4160=DIRECTION('',(-1.,0.,0.));
#4170=AXIS2_PLACEMENT_3D('',#4140,#4150,#4160);
#4180=CONICAL_SURFACE('',#4170,6.18127331764376,0.523598775598299);
#4190=ORIENTED_EDGE('',*,*,#3940,.T.);
#4200=EDGE_CURVE('',#2900,#2990,#2970,.T.);
#4210=ORIENTED_EDGE('',*,*,#4200,.F.);
#4220=ORIENTED_EDGE('',*,*,#4010,.F.);
#4230=ORIENTED_EDGE('',*,*,#3550,.T.);
#4240=EDGE_LOOP('',(#4230,#4220,#4210,#4190));
#4250=FACE_OUTER_BOUND('',#4240,.T.);
#4260=ADVANCED_FACE('',(#4250),#4180,.F.);
#4270=CARTESIAN_POINT('',(35.922181456812,57.057183,-11.463720874298));
#4280=DIRECTION('',(0.,1.,1.11022302462516E-16));
#4290=DIRECTION('',(-1.,0.,0.));
#4300=AXIS2_PLACEMENT_3D('',#4270,#4280,#4290);
#4310=CYLINDRICAL_SURFACE('',#4300,4.);
#4320=ORIENTED_EDGE('',*,*,#800,.T.);
#4330=ORIENTED_EDGE('',*,*,#1060,.T.);
#4340=ORIENTED_EDGE('',*,*,#890,.F.);
#4350=ORIENTED_EDGE('',*,*,#430,.F.);
#4360=EDGE_LOOP('',(#4350,#4340,#4330,#4320));
#4370=FACE_OUTER_BOUND('',#4360,.T.);
#4380=ADVANCED_FACE('',(#4370),#4310,.T.);
#4390=CARTESIAN_POINT('',(35.922181456812,27.1495223758659,
-11.463720874298));
#4400=DIRECTION('',(0.,-1.,-1.11022302462516E-16));
#4410=DIRECTION('',(-1.,0.,0.));
#4420=AXIS2_PLACEMENT_3D('',#4390,#4400,#4410);
#4430=CYLINDRICAL_SURFACE('',#4420,3.95);
#4440=ORIENTED_EDGE('',*,*,#4200,.T.);
#4450=ORIENTED_EDGE('',*,*,#2910,.T.);
#4460=EDGE_CURVE('',#2670,#2590,#2740,.T.);
#4470=ORIENTED_EDGE('',*,*,#4460,.F.);
#4480=ORIENTED_EDGE('',*,*,#3060,.F.);
#4490=EDGE_LOOP('',(#4480,#4470,#4450,#4440));
#4500=FACE_OUTER_BOUND('',#4490,.T.);
#4510=ADVANCED_FACE('',(#4500),#4430,.F.);
#4520=CARTESIAN_POINT('',(35.922181456812,35.0571830000002,
-11.463720874298));
#4530=DIRECTION('',(0.,1.,0.));
#4540=DIRECTION('',(-1.,8.85536848875934E-16,9.8314339877607E-32));
#4550=AXIS2_PLACEMENT_3D('',#4520,#4530,#4540);
#4560=CONICAL_SURFACE('',#4550,6.49999999999993,1.0471975511966);
#4570=ORIENTED_EDGE('',*,*,#3250,.T.);
#4580=EDGE_CURVE('',#1400,#3180,#1360,.T.);
#4590=ORIENTED_EDGE('',*,*,#4580,.T.);
#4600=ORIENTED_EDGE('',*,*,#1410,.T.);
#4610=ORIENTED_EDGE('',*,*,#3330,.F.);
#4620=ORIENTED_EDGE('',*,*,#2420,.F.);
#4630=EDGE_LOOP('',(#4620,#4610,#4600,#4590,#4570));
#4640=FACE_OUTER_BOUND('',#4630,.T.);
#4650=ADVANCED_FACE('',(#4640),#4560,.T.);
#4660=ORIENTED_EDGE('',*,*,#2260,.T.);
#4670=ORIENTED_EDGE('',*,*,#3270,.T.);
#4680=ORIENTED_EDGE('',*,*,#2350,.F.);
#4690=ORIENTED_EDGE('',*,*,#1220,.F.);
#4700=EDGE_LOOP('',(#4690,#4680,#4670,#4660));
#4710=FACE_OUTER_BOUND('',#4700,.T.);
#4720=ADVANCED_FACE('',(#4710),#1770,.T.);
#4730=CARTESIAN_POINT('',(35.922181456812,33.557183,-11.463720874298));
#4740=DIRECTION('',(0.,-1.,0.));
#4750=DIRECTION('',(-1.,0.,0.));
#4760=AXIS2_PLACEMENT_3D('',#4730,#4740,#4750);
#4770=CONICAL_SURFACE('',#4760,3.95,1.22173047639603);
#4780=ORIENTED_EDGE('',*,*,#2600,.F.);
#4790=ORIENTED_EDGE('',*,*,#4460,.T.);
#4800=ORIENTED_EDGE('',*,*,#2680,.T.);
#4810=EDGE_LOOP('',(#4800,#4790,#4780));
#4820=FACE_OUTER_BOUND('',#4810,.T.);
#4830=ADVANCED_FACE('',(#4820),#4770,.F.);
#4840=CARTESIAN_POINT('',(35.922181456812,27.7059940000019,
-11.463720874298));
#4850=DIRECTION('',(0.,-1.,-1.11022302462516E-16));
#4860=DIRECTION('',(0.,1.11022302462516E-16,-1.));
#4870=AXIS2_PLACEMENT_3D('',#4840,#4850,#4860);
#4880=CYLINDRICAL_SURFACE('',#4870,6.1);
#4890=ORIENTED_EDGE('',*,*,#3780,.F.);
#4900=ORIENTED_EDGE('',*,*,#1490,.T.);
#4910=ORIENTED_EDGE('',*,*,#4580,.F.);
#4920=ORIENTED_EDGE('',*,*,#3190,.F.);
#4930=ORIENTED_EDGE('',*,*,#1660,.F.);
#4940=ORIENTED_EDGE('',*,*,#3800,.F.);
#4950=EDGE_LOOP('',(#4940,#4930,#4920,#4910,#4900,#4890));
#4960=FACE_OUTER_BOUND('',#4950,.T.);
#4970=ADVANCED_FACE('',(#4960),#4880,.T.);
#4980=CLOSED_SHELL('',(#1000,#1260,#1720,#2140,#2460,#2790,#3110,#3380,
#3640,#3840,#4060,#4130,#4260,#4380,#4510,#4650,#4720,#4830,#4970,#210,
#550,#680));
#4990=MANIFOLD_SOLID_BREP('',#4980);
#5000=CARTESIAN_POINT('',(0.,0.,0.));
#5010=DIRECTION('',(0.,0.,1.));
#5020=DIRECTION('',(1.,0.,0.));
#5030=AXIS2_PLACEMENT_3D('',#5000,#5010,#5020);
#5040=APPLICATION_CONTEXT(' ');
#5050=APPLICATION_PROTOCOL_DEFINITION(' ','automotive_design',1998,#5040
);
#5060=PRODUCT_CONTEXT('',#5040,'mechanical');
#5070=PRODUCT_DEFINITION_CONTEXT('part definition',#5040,'design');
#5080=PRODUCT('CGMA_35','CGMA_35','',(#5060));
#5090=PRODUCT_RELATED_PRODUCT_CATEGORY('part',' ',(#5080));
#5100=PRODUCT_DEFINITION_FORMATION_WITH_SPECIFIED_SOURCE('','',#5080,
.BOUGHT.);
#5110=PRODUCT_DEFINITION('',' ',#5100,#5070);
#5120=PRODUCT_DEFINITION_SHAPE('','',#5110);
#5130=DIMENSIONAL_EXPONENTS(1.,0.,0.,0.,0.,0.,0.);
#5140=DIMENSIONAL_EXPONENTS(0.,0.,0.,0.,0.,0.,0.);
#5150=DIMENSIONAL_EXPONENTS(0.,0.,0.,0.,0.,0.,0.);
#5160=(LENGTH_UNIT() NAMED_UNIT(*) SI_UNIT(.MILLI.,.METRE.));
#5170=(NAMED_UNIT(*) PLANE_ANGLE_UNIT() SI_UNIT($,.RADIAN.));
#5180=(NAMED_UNIT(*) SI_UNIT($,.STERADIAN.) SOLID_ANGLE_UNIT());
#5190=(GEOMETRIC_REPRESENTATION_CONTEXT(3) 
GLOBAL_UNCERTAINTY_ASSIGNED_CONTEXT((#5200)) 
GLOBAL_UNIT_ASSIGNED_CONTEXT((#5160,#5170,#5180)) REPRESENTATION_CONTEXT
('',''));
#5200=UNCERTAINTY_MEASURE_WITH_UNIT(LENGTH_MEASURE(1.E-6),#5160,
'distance_accuracy_value','maximum gap value');
#5210=ADVANCED_BREP_SHAPE_REPRESENTATION('',(#5030,#4990),#5190);
#5220=SHAPE_DEFINITION_REPRESENTATION(#5120,#5210);
#5230=COLOUR_RGB('',0.600000023841858,0.600000023841858,
0.600000023841858);
#5240=FILL_AREA_STYLE_COLOUR('',#5230);
#5250=FILL_AREA_STYLE('',(#5240));
#5260=SURFACE_STYLE_FILL_AREA(#5250);
#5270=SURFACE_SIDE_STYLE('',(#5260));
#5280=SURFACE_STYLE_USAGE(.BOTH.,#5270);
#5290=PRESENTATION_STYLE_ASSIGNMENT((#5280));
#5300=STYLED_ITEM('',(#5290),#4990);
#5310=DRAUGHTING_MODEL('',(#5300),#5190);
#5320=CARTESIAN_POINT('',(129.360133456812,-12.4714971257023,
-124.657183000002));
#5330=DIRECTION('',(0.,1.,1.11022302462516E-16));
#5340=DIRECTION('',(-1.,0.,0.));
#5350=AXIS2_PLACEMENT_3D('',#5320,#5330,#5340);
#5360=ITEM_DEFINED_TRANSFORMATION('CGMA_35','',#5030,#5350);
#5370=APPLICATION_CONTEXT(' ');
#5380=APPLICATION_PROTOCOL_DEFINITION(' ','automotive_design',1998,#5370
);
#5390=PRODUCT_CONTEXT('',#5370,'mechanical');
#5400=PRODUCT_DEFINITION_CONTEXT('part definition',#5370,'design');
#5410=PRODUCT('CGMA_35','CGMA_35','',(#5390));
#5420=PRODUCT_RELATED_PRODUCT_CATEGORY('part',' ',(#5410));
#5430=PRODUCT_DEFINITION_FORMATION_WITH_SPECIFIED_SOURCE('','',#5410,
.BOUGHT.);
#5440=PRODUCT_DEFINITION('',' ',#5430,#5400);
#5450=PRODUCT_DEFINITION_SHAPE('','',#5440);
#5460=DIMENSIONAL_EXPONENTS(1.,0.,0.,0.,0.,0.,0.);
#5470=DIMENSIONAL_EXPONENTS(0.,0.,0.,0.,0.,0.,0.);
#5480=DIMENSIONAL_EXPONENTS(0.,0.,0.,0.,0.,0.,0.);
#5490=(LENGTH_UNIT() NAMED_UNIT(*) SI_UNIT(.MILLI.,.METRE.));
#5500=(NAMED_UNIT(*) PLANE_ANGLE_UNIT() SI_UNIT($,.RADIAN.));
#5510=(NAMED_UNIT(*) SI_UNIT($,.STERADIAN.) SOLID_ANGLE_UNIT());
#5520=(GEOMETRIC_REPRESENTATION_CONTEXT(3) 
GLOBAL_UNCERTAINTY_ASSIGNED_CONTEXT((#5530)) 
GLOBAL_UNIT_ASSIGNED_CONTEXT((#5490,#5500,#5510)) REPRESENTATION_CONTEXT
('',''));
#5530=UNCERTAINTY_MEASURE_WITH_UNIT(LENGTH_MEASURE(1.E-6),#5490,
'distance_accuracy_value','maximum gap value');
#5540=SHAPE_REPRESENTATION('',(#5030,#5350),#5520);
#5550=SHAPE_DEFINITION_REPRESENTATION(#5450,#5540);
#5560=(REPRESENTATION_RELATIONSHIP('','',#5210,#5540) 
REPRESENTATION_RELATIONSHIP_WITH_TRANSFORMATION(#5360) 
SHAPE_REPRESENTATION_RELATIONSHIP());
#5570=NEXT_ASSEMBLY_USAGE_OCCURRENCE('1','','CGMA_35',#5440,#5110,'');
#5580=PRODUCT_DEFINITION_SHAPE('','',#5570);
#5590=CONTEXT_DEPENDENT_SHAPE_REPRESENTATION(#5560,#5580);
ENDSEC;
END-ISO-10303-21;
